-------------------------------------------------------------------------------
			     "The Reason" by Hoobastank
-------------------------------------------------------------------------------
Tabbed by: Wahyu Sucau
Email: sucaubalawad@ymail.com
Chords used:

E C#msus Asus4 Bsus4 Esus4 Dsus2
e|-0-----0-----0------0-----0------0-|
B|-0-----5-----0------0-----0------3-|
G|-1-----6-----6------8-----9------2-|
D|-2-----6-----7------9-----9------0-|
A|-2-----4-----7------9-----7------0-|
E|-0-----0-----5------7-----0------x-|

Listen to the CD for strumming patterns.

Baca lebih lanjut